ISO-10303-21;
HEADER;
FILE_DESCRIPTION (( 'STEP AP214' ),
    '1' );
FILE_NAME ('singleside_ellipse_12mmthick.STEP',
    '2020-12-02T17:32:55',
    ( '' ),
    ( '' ),
    'SwSTEP 2.0',
    'SolidWorks 2020',
    '' );
FILE_SCHEMA (( 'AUTOMOTIVE_DESIGN' ));
ENDSEC;

DATA;
#1 = CARTESIAN_POINT ( 'NONE',  ( 139.6999999999999318, -114.3000000000001251, -990.6019999999999754 ) ) ;
#2 = LINE ( 'NONE', #200, #5 ) ;
#3 = VERTEX_POINT ( 'NONE', #73 ) ;
#4 = EDGE_CURVE ( 'NONE', #3, #101, #42, .T. ) ;
#5 = VECTOR ( 'NONE', #108, 1000.000000000000000 ) ;
#6 = SURFACE_STYLE_FILL_AREA ( #157 ) ;
#7 =( NAMED_UNIT ( * ) SI_UNIT ( $, .STERADIAN. ) SOLID_ANGLE_UNIT ( ) );
#8 = ADVANCED_FACE ( 'NONE', ( #19 ), #40, .T. ) ;
#9 = DIRECTION ( 'NONE',  ( -1.000000000000000000, 0.000000000000000000, 0.000000000000000000 ) ) ;
#10 = CARTESIAN_POINT ( 'NONE',  ( 139.7000000000002160, -115.6653614270136359, 983.1533941771032232 ) ) ;
#11 = EDGE_CURVE ( 'NONE', #50, #125, #57, .T. ) ;
#12 = CARTESIAN_POINT ( 'NONE',  ( -139.6999999999999318, -114.3000000000001251, 983.3130642455638508 ) ) ;
#13 =( NAMED_UNIT ( * ) SI_UNIT ( $, .STERADIAN. ) SOLID_ANGLE_UNIT ( ) );
#14 = ADVANCED_FACE ( 'NONE', ( #135 ), #202, .T. ) ;
#15 = VECTOR ( 'NONE', #182, 1000.000000000000000 ) ;
#16 = AXIS2_PLACEMENT_3D ( 'NONE', #102, #210, #100 ) ;
#17 = APPLICATION_PROTOCOL_DEFINITION ( 'draft international standard', 'automotive_design', 1998, #27 ) ;
#18 = VERTEX_POINT ( 'NONE', #109 ) ;
#19 = FACE_OUTER_BOUND ( 'NONE', #70, .T. ) ;
#20 =( GEOMETRIC_REPRESENTATION_CONTEXT ( 3 ) GLOBAL_UNCERTAINTY_ASSIGNED_CONTEXT ( ( #150 ) ) GLOBAL_UNIT_ASSIGNED_CONTEXT ( ( #133, #83, #13 ) ) REPRESENTATION_CONTEXT ( 'NONE', 'WORKASPACE' ) );
#21 = ORIENTED_EDGE ( 'NONE', *, *, #217, .F. ) ;
#22 = ORIENTED_EDGE ( 'NONE', *, *, #131, .F. ) ;
#23 = CARTESIAN_POINT ( 'NONE',  ( -139.7000000000015802, -115.6653614270136359, 983.1533941771032232 ) ) ;
#24 = CARTESIAN_POINT ( 'NONE',  ( 46.56666666666675525, 114.2999999999999829, 984.2075150106837782 ) ) ;
#25 = CARTESIAN_POINT ( 'NONE',  ( -46.56666666666825449, 114.3000000000002387, 984.2075150106836645 ) ) ;
#26 = DIRECTION ( 'NONE',  ( -2.803780775777149485E-17, 1.000000000000000000, 0.000000000000000000 ) ) ;
#27 = APPLICATION_CONTEXT ( 'automotive_design' ) ;
#28 = SHAPE_DEFINITION_REPRESENTATION ( #128, #198 ) ;
#29 = ORIENTED_EDGE ( 'NONE', *, *, #104, .F. ) ;
#30 =( NAMED_UNIT ( * ) PLANE_ANGLE_UNIT ( ) SI_UNIT ( $, .RADIAN. ) );
#31 = PRODUCT ( 'singleside_ellipse_12mmthick', 'singleside_ellipse_12mmthick', '', ( #134 ) ) ;
#32 = ORIENTED_EDGE ( 'NONE', *, *, #11, .F. ) ;
#33 = CLOSED_SHELL ( 'NONE', ( #190, #124, #14, #185, #8, #209 ) ) ;
#34 = EDGE_CURVE ( 'NONE', #191, #87, #56, .T. ) ;
#35 = VECTOR ( 'NONE', #36, 1000.000000000000000 ) ;
#36 = DIRECTION ( 'NONE',  ( 0.000000000000000000, 0.000000000000000000, 1.000000000000000000 ) ) ;
#37 = CARTESIAN_POINT ( 'NONE',  ( -139.6999999999999318, 114.2999999999998977, -990.6019999999999754 ) ) ;
#38 = ORIENTED_EDGE ( 'NONE', *, *, #46, .F. ) ;
#39 = ORIENTED_EDGE ( 'NONE', *, *, #4, .T. ) ;
#40 = PLANE ( 'NONE',  #84 ) ;
#41 = DIRECTION ( 'NONE',  ( 0.000000000000000000, -0.000000000000000000, -1.000000000000000000 ) ) ;
#42 = CIRCLE ( 'NONE', #67, 989.9338726985760104 ) ;
#43 = CARTESIAN_POINT ( 'NONE',  ( 139.6999999999999318, 114.2999999999998977, 983.3130642455640782 ) ) ;
#44 = DIRECTION ( 'NONE',  ( 0.000000000000000000, -1.000000000000000000, 0.000000000000000000 ) ) ;
#45 = CARTESIAN_POINT ( 'NONE',  ( -139.7000000000016087, 114.2999999999998977, 995.3130642455640782 ) ) ;
#46 = EDGE_CURVE ( 'NONE', #101, #87, #172, .T. ) ;
#47 = CARTESIAN_POINT ( 'NONE',  ( -139.7000000000015802, -38.73198169656059520, 992.2044000781432942 ) ) ;
#48 = B_SPLINE_CURVE_WITH_KNOTS ( 'NONE', 3,
 ( #144, #24, #25, #97 ),
 .UNSPECIFIED., .F., .F.,
 ( 4, 4 ),
 ( 1.387778780781445676E-16, 0.2794000000000000927 ),
 .UNSPECIFIED. ) ;
#49 = FILL_AREA_STYLE ('',( #212 ) ) ;
#50 = VERTEX_POINT ( 'NONE', #167 ) ;
#51 = COLOUR_RGB ( '',0.7921568627450980005, 0.8196078431372548767, 0.9333333333333333481 ) ;
#52 = PRESENTATION_STYLE_ASSIGNMENT (( #193 ) ) ;
#53 = ORIENTED_EDGE ( 'NONE', *, *, #104, .T. ) ;
#54 =( LENGTH_UNIT ( ) NAMED_UNIT ( * ) SI_UNIT ( .MILLI., .METRE. ) );
#55 = VECTOR ( 'NONE', #188, 1000.000000000000000 ) ;
#56 = LINE ( 'NONE', #151, #15 ) ;
#57 = LINE ( 'NONE', #136, #165 ) ;
#58 = CARTESIAN_POINT ( 'NONE',  ( 139.6999999999999034, 4.276109201519536342E-15, 0.000000000000000000 ) ) ;
#59 = FACE_OUTER_BOUND ( 'NONE', #168, .T. ) ;
#60 = CARTESIAN_POINT ( 'NONE',  ( -139.7000000000016087, -114.3000000000001251, 995.3130642455640782 ) ) ;
#61 = VECTOR ( 'NONE', #160, 1000.000000000000000 ) ;
#62 = LINE ( 'NONE', #114, #61 ) ;
#63 = EDGE_CURVE ( 'NONE', #119, #18, #2, .T. ) ;
#64 = CARTESIAN_POINT ( 'NONE',  ( 46.58755181382944244, 115.7691481494604631, 984.0355793636248336 ) ) ;
#65 = B_SPLINE_CURVE_WITH_KNOTS ( 'NONE', 3,
 ( #12, #81, #110, #207 ),
 .UNSPECIFIED., .F., .F.,
 ( 4, 4 ),
 ( 8.326672684688674053E-16, 0.2794000000000006478 ),
 .UNSPECIFIED. ) ;
#66 = APPLICATION_PROTOCOL_DEFINITION ( 'draft international standard', 'automotive_design', 1998, #86 ) ;
#67 = AXIS2_PLACEMENT_3D ( 'NONE', #58, #121, #183 ) ;
#68 = PRODUCT_DEFINITION ( 'UNKNOWN', '', #139, #194 ) ;
#69 = ORIENTED_EDGE ( 'NONE', *, *, #63, .F. ) ;
#70 = EDGE_LOOP ( 'NONE', ( #215, #99, #39, #90 ) ) ;
#71 = AXIS2_PLACEMENT_3D ( 'NONE', #116, #208, #26 ) ;
#72 = LINE ( 'NONE', #122, #35 ) ;
#73 = CARTESIAN_POINT ( 'NONE',  ( 139.6999999999999318, -114.3000000000001251, 983.3130642455638508 ) ) ;
#74 = ORIENTED_EDGE ( 'NONE', *, *, #153, .T. ) ;
#75 = SURFACE_SIDE_STYLE ('',( #6 ) ) ;
#76 = CARTESIAN_POINT ( 'NONE',  ( 139.6999999999999318, -114.3000000000001251, 995.3130642455640782 ) ) ;
#77 = CARTESIAN_POINT ( 'NONE',  ( 46.58755181382944244, -38.76673596857929738, 993.0947067474124879 ) ) ;
#78 = STYLED_ITEM ( 'NONE', ( #52 ), #198 ) ;
#79 = CARTESIAN_POINT ( 'NONE',  ( -139.7000000000015802, 115.6653614270131527, 983.1533941771033369 ) ) ;
#80 = DIRECTION ( 'NONE',  ( 1.000000000000000000, -0.000000000000000000, -0.000000000000000000 ) ) ;
#81 = CARTESIAN_POINT ( 'NONE',  ( -46.56666666666748000, -114.3000000000003240, 984.2075150106835508 ) ) ;
#82 = PRODUCT_RELATED_PRODUCT_CATEGORY ( 'part', '', ( #31 ) ) ;
#83 =( NAMED_UNIT ( * ) PLANE_ANGLE_UNIT ( ) SI_UNIT ( $, .RADIAN. ) );
#84 = AXIS2_PLACEMENT_3D ( 'NONE', #1, #138, #203 ) ;
#85 = EDGE_CURVE ( 'NONE', #3, #191, #72, .T. ) ;
#86 = APPLICATION_CONTEXT ( 'automotive_design' ) ;
#87 = VERTEX_POINT ( 'NONE', #92 ) ;
#88 = UNCERTAINTY_MEASURE_WITH_UNIT (LENGTH_MEASURE( 1.000000000000000082E-05 ), #54, 'distance_accuracy_value', 'NONE');
#89 = DIRECTION ( 'NONE',  ( 0.000000000000000000, 0.000000000000000000, 1.000000000000000000 ) ) ;
#90 = ORIENTED_EDGE ( 'NONE', *, *, #46, .T. ) ;
#91 = ORIENTED_EDGE ( 'NONE', *, *, #147, .F. ) ;
#92 = CARTESIAN_POINT ( 'NONE',  ( 139.6999999999999318, 114.2999999999998977, 995.3130642455640782 ) ) ;
#93 = MANIFOLD_SOLID_BREP ( 'Cut-Extrude2', #33 ) ;
#94 = VECTOR ( 'NONE', #80, 1000.000000000000000 ) ;
#95 = CARTESIAN_POINT ( 'NONE',  ( -139.6999999999999318, -114.3000000000001251, -990.6019999999999754 ) ) ;
#96 = PLANE ( 'NONE',  #211 ) ;
#97 = CARTESIAN_POINT ( 'NONE',  ( -139.6999999999999602, 114.2999999999998977, 983.3130642455639645 ) ) ;
#98 = CARTESIAN_POINT ( 'NONE',  ( -139.7000000000016087, 114.2999999999998977, 995.3130642455640782 ) ) ;
#99 = ORIENTED_EDGE ( 'NONE', *, *, #85, .F. ) ;
#100 = DIRECTION ( 'NONE',  ( 1.000000000000000000, 0.000000000000000000, 0.000000000000000000 ) ) ;
#101 = VERTEX_POINT ( 'NONE', #43 ) ;
#102 = CARTESIAN_POINT ( 'NONE',  ( 0.000000000000000000, 0.000000000000000000, 0.000000000000000000 ) ) ;
#103 = ORIENTED_EDGE ( 'NONE', *, *, #63, .T. ) ;
#104 = EDGE_CURVE ( 'NONE', #101, #119, #48, .T. ) ;
#105 = EDGE_LOOP ( 'NONE', ( #197, #155, #21, #29 ) ) ;
#106 = DIRECTION ( 'NONE',  ( 0.000000000000000000, -0.000000000000000000, 1.000000000000000000 ) ) ;
#107 = STYLED_ITEM ( 'NONE', ( #171 ), #93 ) ;
#108 = DIRECTION ( 'NONE',  ( 0.000000000000000000, 0.000000000000000000, 1.000000000000000000 ) ) ;
#109 = CARTESIAN_POINT ( 'NONE',  ( -139.6999999999999318, 114.2999999999998977, 995.3130642455640782 ) ) ;
#110 = CARTESIAN_POINT ( 'NONE',  ( 46.56666666666692578, -114.3000000000009067, 984.2075150106835508 ) ) ;
#111 = AXIS2_PLACEMENT_3D ( 'NONE', #45, #175, #126 ) ;
#112 = CARTESIAN_POINT ( 'NONE',  ( 139.7000000000002160, 115.6653614270131527, 983.1533941771033369 ) ) ;
#113 = PLANE ( 'NONE',  #111 ) ;
#114 = CARTESIAN_POINT ( 'NONE',  ( -139.6999999999999318, -114.3000000000001251, 995.3130642455640782 ) ) ;
#115 =( GEOMETRIC_REPRESENTATION_CONTEXT ( 3 ) GLOBAL_UNCERTAINTY_ASSIGNED_CONTEXT ( ( #216 ) ) GLOBAL_UNIT_ASSIGNED_CONTEXT ( ( #196, #30, #177 ) ) REPRESENTATION_CONTEXT ( 'NONE', 'WORKASPACE' ) );
#116 = CARTESIAN_POINT ( 'NONE',  ( -139.6999999999999602, -4.276109201519538709E-15, 0.000000000000000000 ) ) ;
#117 = ORIENTED_EDGE ( 'NONE', *, *, #195, .F. ) ;
#118 = ORIENTED_EDGE ( 'NONE', *, *, #147, .T. ) ;
#119 = VERTEX_POINT ( 'NONE', #181 ) ;
#120 = EDGE_LOOP ( 'NONE', ( #22, #32, #74, #179 ) ) ;
#121 = DIRECTION ( 'NONE',  ( -1.000000000000000000, -3.060922835733385624E-17, 0.000000000000000000 ) ) ;
#122 = CARTESIAN_POINT ( 'NONE',  ( 139.6999999999999318, -114.3000000000001251, -990.6019999999999754 ) ) ;
#123 = CARTESIAN_POINT ( 'NONE',  ( 139.6999999999999318, 114.2999999999998977, -990.6019999999999754 ) ) ;
#124 = ADVANCED_FACE ( 'NONE', ( #59 ), #187, .T. ) ;
#125 = VERTEX_POINT ( 'NONE', #60 ) ;
#126 = DIRECTION ( 'NONE',  ( -1.000000000000000000, 0.000000000000000000, 0.000000000000000000 ) ) ;
#127 = CARTESIAN_POINT ( 'NONE',  ( -46.58755181383079247, -115.7691481494609462, 984.0355793636247199 ) ) ;
#128 = PRODUCT_DEFINITION_SHAPE ( 'NONE', 'NONE',  #68 ) ;
#129 = FACE_OUTER_BOUND ( 'NONE', #199, .T. ) ;
#130 = CARTESIAN_POINT ( 'NONE',  ( 139.7000000000002160, 38.73198169656009071, 992.2044000781434079 ) ) ;
#131 = EDGE_CURVE ( 'NONE', #125, #191, #62, .T. ) ;
#132 = CARTESIAN_POINT ( 'NONE',  ( -46.58755181383079957, 38.76673596857879289, 993.0947067474124879 ) ) ;
#133 =( LENGTH_UNIT ( ) NAMED_UNIT ( * ) SI_UNIT ( .MILLI., .METRE. ) );
#134 = PRODUCT_CONTEXT ( 'NONE', #86, 'mechanical' ) ;
#135 = FACE_OUTER_BOUND ( 'NONE', #213, .T. ) ;
#136 = CARTESIAN_POINT ( 'NONE',  ( -139.6999999999999318, -114.3000000000001251, -990.6019999999999754 ) ) ;
#137 = ORIENTED_EDGE ( 'NONE', *, *, #195, .T. ) ;
#138 = DIRECTION ( 'NONE',  ( 1.000000000000000000, 0.000000000000000000, 0.000000000000000000 ) ) ;
#139 = PRODUCT_DEFINITION_FORMATION_WITH_SPECIFIED_SOURCE ( 'ANY', '', #31, .NOT_KNOWN. ) ;
#140 = SURFACE_STYLE_USAGE ( .BOTH. , #75 ) ;
#141 = CARTESIAN_POINT ( 'NONE',  ( -139.7000000000015802, 38.73198169656009071, 992.2044000781434079 ) ) ;
#142 =( NAMED_UNIT ( * ) PLANE_ANGLE_UNIT ( ) SI_UNIT ( $, .RADIAN. ) );
#143 = PRESENTATION_LAYER_ASSIGNMENT (  '', '', ( #78 ) ) ;
#144 = CARTESIAN_POINT ( 'NONE',  ( 139.6999999999999318, 114.2999999999998977, 983.3130642455640782 ) ) ;
#145 = FACE_OUTER_BOUND ( 'NONE', #105, .T. ) ;
#146 = ORIENTED_EDGE ( 'NONE', *, *, #217, .T. ) ;
#147 = EDGE_CURVE ( 'NONE', #18, #87, #186, .T. ) ;
#148 = SURFACE_STYLE_FILL_AREA ( #49 ) ;
#149 = AXIS2_PLACEMENT_3D ( 'NONE', #95, #9, #163 ) ;
#150 = UNCERTAINTY_MEASURE_WITH_UNIT (LENGTH_MEASURE( 1.000000000000000082E-05 ), #133, 'distance_accuracy_value', 'NONE');
#151 = CARTESIAN_POINT ( 'NONE',  ( 139.6999999999999318, 114.2999999999998977, 995.3130642455640782 ) ) ;
#152 = COLOUR_RGB ( '',0.7921568627450980005, 0.8196078431372548767, 0.9333333333333333481 ) ;
#153 = EDGE_CURVE ( 'NONE', #50, #3, #65, .T. ) ;
#154 = DIRECTION ( 'NONE',  ( 0.000000000000000000, 0.000000000000000000, 1.000000000000000000 ) ) ;
#155 = ORIENTED_EDGE ( 'NONE', *, *, #153, .F. ) ;
#156 = DIRECTION ( 'NONE',  ( 0.000000000000000000, 1.000000000000000000, 0.000000000000000000 ) ) ;
#157 = FILL_AREA_STYLE ('',( #170 ) ) ;
#158 = PRESENTATION_LAYER_ASSIGNMENT (  '', '', ( #107 ) ) ;
#159 = CARTESIAN_POINT ( 'NONE',  ( -46.58755181383079247, -38.76673596857929738, 993.0947067474124879 ) ) ;
#160 = DIRECTION ( 'NONE',  ( 1.000000000000000000, 0.000000000000000000, 0.000000000000000000 ) ) ;
#161 = AXIS2_PLACEMENT_3D ( 'NONE', #37, #156, #106 ) ;
#162 = FACE_OUTER_BOUND ( 'NONE', #120, .T. ) ;
#163 = DIRECTION ( 'NONE',  ( 0.000000000000000000, 0.000000000000000000, 1.000000000000000000 ) ) ;
#164 =( BOUNDED_SURFACE ( )  B_SPLINE_SURFACE ( 3, 3, ( 
 ( #79, #141, #47, #23 ),
 ( #204, #132, #159, #127 ),
 ( #64, #176, #77, #206 ),
 ( #112, #130, #205, #10 ) ),
 .UNSPECIFIED., .F., .F., .F. ) 
 B_SPLINE_SURFACE_WITH_KNOTS ( ( 4, 4 ),
 ( 4, 4 ),
 ( 0.000000000000000000, 1.000000000000000000 ),
 ( 0.000000000000000000, 1.000000000000000000 ),
 .UNSPECIFIED. ) 
 GEOMETRIC_REPRESENTATION_ITEM ( )  RATIONAL_B_SPLINE_SURFACE ( (
 ( 1.000000000000000000, 0.9954337161915748355, 0.9954337161915748355, 1.000000000000000000),
 ( 0.9995517011229395621, 0.9949874643744180958, 0.9949874643744180958, 0.9995517011229395621),
 ( 0.9995517011229395621, 0.9949874643744180958, 0.9949874643744180958, 0.9995517011229395621),
 ( 1.000000000000000000, 0.9954337161915748355, 0.9954337161915748355, 1.000000000000000000) ) ) 
 REPRESENTATION_ITEM ( '' )  SURFACE ( )  );
#165 = VECTOR ( 'NONE', #89, 1000.000000000000000 ) ;
#166 = ORIENTED_EDGE ( 'NONE', *, *, #34, .T. ) ;
#167 = CARTESIAN_POINT ( 'NONE',  ( -139.6999999999999318, -114.3000000000001251, 983.3130642455638508 ) ) ;
#168 = EDGE_LOOP ( 'NONE', ( #117, #69, #146, #201 ) ) ;
#169 = MECHANICAL_DESIGN_GEOMETRIC_PRESENTATION_REPRESENTATION (  '', ( #78 ), #115 ) ;
#170 = FILL_AREA_STYLE_COLOUR ( '', #152 ) ;
#171 = PRESENTATION_STYLE_ASSIGNMENT (( #140 ) ) ;
#172 = LINE ( 'NONE', #123, #189 ) ;
#173 = CARTESIAN_POINT ( 'NONE',  ( -139.6999999999999318, -114.3000000000001251, -990.6019999999999754 ) ) ;
#174 = CARTESIAN_POINT ( 'NONE',  ( -139.6999999999999318, -114.3000000000001251, 995.3130642455640782 ) ) ;
#175 = DIRECTION ( 'NONE',  ( -0.000000000000000000, 0.000000000000000000, -1.000000000000000000 ) ) ;
#176 = CARTESIAN_POINT ( 'NONE',  ( 46.58755181382943533, 38.76673596857879289, 993.0947067474124879 ) ) ;
#177 =( NAMED_UNIT ( * ) SI_UNIT ( $, .STERADIAN. ) SOLID_ANGLE_UNIT ( ) );
#178 = CIRCLE ( 'NONE', #71, 989.9338726985760104 ) ;
#179 = ORIENTED_EDGE ( 'NONE', *, *, #85, .T. ) ;
#180 = ORIENTED_EDGE ( 'NONE', *, *, #131, .T. ) ;
#181 = CARTESIAN_POINT ( 'NONE',  ( -139.6999999999999602, 114.2999999999998977, 983.3130642455639645 ) ) ;
#182 = DIRECTION ( 'NONE',  ( -0.000000000000000000, 1.000000000000000000, -0.000000000000000000 ) ) ;
#183 = DIRECTION ( 'NONE',  ( -2.803780775777149485E-17, 1.000000000000000000, -8.881784197001253901E-15 ) ) ;
#184 = LINE ( 'NONE', #174, #55 ) ;
#185 = ADVANCED_FACE ( 'NONE', ( #162 ), #96, .T. ) ;
#186 = LINE ( 'NONE', #98, #94 ) ;
#187 = PLANE ( 'NONE',  #149 ) ;
#188 = DIRECTION ( 'NONE',  ( 0.000000000000000000, -1.000000000000000000, 0.000000000000000000 ) ) ;
#189 = VECTOR ( 'NONE', #154, 1000.000000000000000 ) ;
#190 = ADVANCED_FACE ( 'NONE', ( #145 ), #164, .T. ) ;
#191 = VERTEX_POINT ( 'NONE', #76 ) ;
#192 =( GEOMETRIC_REPRESENTATION_CONTEXT ( 3 ) GLOBAL_UNCERTAINTY_ASSIGNED_CONTEXT ( ( #88 ) ) GLOBAL_UNIT_ASSIGNED_CONTEXT ( ( #54, #142, #7 ) ) REPRESENTATION_CONTEXT ( 'NONE', 'WORKASPACE' ) );
#193 = SURFACE_STYLE_USAGE ( .BOTH. , #214 ) ;
#194 = PRODUCT_DEFINITION_CONTEXT ( 'detailed design', #27, 'design' ) ;
#195 = EDGE_CURVE ( 'NONE', #18, #125, #184, .T. ) ;
#196 =( LENGTH_UNIT ( ) NAMED_UNIT ( * ) SI_UNIT ( .MILLI., .METRE. ) );
#197 = ORIENTED_EDGE ( 'NONE', *, *, #4, .F. ) ;
#198 = ADVANCED_BREP_SHAPE_REPRESENTATION ( 'singleside_ellipse_12mmthick', ( #93, #16 ), #20 ) ;
#199 = EDGE_LOOP ( 'NONE', ( #180, #166, #91, #137 ) ) ;
#200 = CARTESIAN_POINT ( 'NONE',  ( -139.6999999999999318, 114.2999999999998977, -990.6019999999999754 ) ) ;
#201 = ORIENTED_EDGE ( 'NONE', *, *, #11, .T. ) ;
#202 = PLANE ( 'NONE',  #161 ) ;
#203 = DIRECTION ( 'NONE',  ( 0.000000000000000000, 0.000000000000000000, -1.000000000000000000 ) ) ;
#204 = CARTESIAN_POINT ( 'NONE',  ( -46.58755181383079957, 115.7691481494604631, 984.0355793636248336 ) ) ;
#205 = CARTESIAN_POINT ( 'NONE',  ( 139.7000000000002160, -38.73198169656059520, 992.2044000781432942 ) ) ;
#206 = CARTESIAN_POINT ( 'NONE',  ( 46.58755181382944954, -115.7691481494609462, 984.0355793636247199 ) ) ;
#207 = CARTESIAN_POINT ( 'NONE',  ( 139.6999999999999318, -114.3000000000001251, 983.3130642455638508 ) ) ;
#208 = DIRECTION ( 'NONE',  ( 1.000000000000000000, 3.060922835733385624E-17, -0.000000000000000000 ) ) ;
#209 = ADVANCED_FACE ( 'NONE', ( #129 ), #113, .F. ) ;
#210 = DIRECTION ( 'NONE',  ( 0.000000000000000000, 0.000000000000000000, 1.000000000000000000 ) ) ;
#211 = AXIS2_PLACEMENT_3D ( 'NONE', #173, #44, #41 ) ;
#212 = FILL_AREA_STYLE_COLOUR ( '', #51 ) ;
#213 = EDGE_LOOP ( 'NONE', ( #118, #38, #53, #103 ) ) ;
#214 = SURFACE_SIDE_STYLE ('',( #148 ) ) ;
#215 = ORIENTED_EDGE ( 'NONE', *, *, #34, .F. ) ;
#216 = UNCERTAINTY_MEASURE_WITH_UNIT (LENGTH_MEASURE( 1.000000000000000082E-05 ), #196, 'distance_accuracy_value', 'NONE');
#217 = EDGE_CURVE ( 'NONE', #119, #50, #178, .T. ) ;
#218 = MECHANICAL_DESIGN_GEOMETRIC_PRESENTATION_REPRESENTATION (  '', ( #107 ), #192 ) ;
ENDSEC;
END-ISO-10303-21;
